Bruce Bernhart Mandolin Lessons- Lesson Five


Updated!
  Bruce Bernhart Mandolin Topics

Original articles, lessons plus the "best of the web" on mandolin purchase and set up by mandolin player/teacher Bruce Bernhart

New! Tabs for Popular Fiddle Tunes:

"Sandy River Belle"
"Liza Jane"
"Spanish Ladies"

Updated October 26, 2012

Chord Triads, Plus Fiddle Tune Tabs

In Minnesota, Bruce Bernhart has been a mandolin enthusiast since the mid-1980's
Bruce Bernhart Mandolin Websites
The Bernhart Mandolin Webpages explore the history of the mandolin, buying and building mandolins, lessons, basic chord structures, the different styles of playing and the various makes and models of mandolins available on the market

Look for additional Bruce Bernhart mandolin articles 
Bruce Bernhart Mandolin Webpages

Bruce Bernhart Mandolin Websites
Sandy River Belle- By Cedwyn Morgan
	  						
-----||-- --------------|----------2--0---|-----------------|-----------------|
----o||-----0-2-4-------|-2---0-----------|-----0-2-4-------|-2---------------|
----o||-2-4-------------|-----------------|-2-4-------------|-----0---4---2---|
-----||-----------------|-----------------|-----------------|-----------------|
        |_|_|_| |_|_|_|   |_|_|_| |_|_|_|   |_|_|_| |_|_|_|   |_|_|_| |_|_|_|


      |-----------------|---------2---0---|-0---5-0-2---5-2-|-0---------------||
      |-----0-2-4-------|-2---0-----------|-----------------|---4-2---0-------||o
      |-2-4-------------|-----------------|-----------------|-----------------||o
      |-----------------|-----------------|-----------------|-----------------||
        |_|_|_| |_|_|_|   |_|_|_| |_|_|_|   |_|_|_| |_|_|_|   |_|_|_| |_|_|_|


     ||-0---5-2-5---5-7-|-9---7---5-------|-0---5---0---4-2-|-0---0-5-7-------|
    o||-------------sl--|-----------------|-----------------|---4-------------|
    o||-----------------|-----------------|-----------------|-----------------|
     ||-----------------|-----------------|-----------------|-----------------|
        |_|_|_| |_|_|_|   |_|_|_| |_|_|_|   |_|_|_| |_|_|_|   |_|_|_| |_|_|_|


      |-0---5-5-5---5-7-|-9-7-5---0-2-0---|-5-4-5-0-2-5-0---|-----------------||
      |-----------------|-----------------|---------------5-|-4---2-4-0-------||o
      |-----------------|-----------------|-----------------|-----------------||o
      |-----------------|-----------------|-----------------|-----------------||
        |_|_|_| |_|_|_|   |_|_|_| |_|_|_|   |_|_|_| |_|_|_|   |_|_|_| |_|_|_|

Bruce Bernhart Mandolin Websites

Be sure to visit the other Bruce Bernhart Mandolin Websites:

Bruce Bernhart mandolin rock tabs

Bruce Bernhart mandolin lessons- common scales

Bruce Bernhart on buying and setting up your new mandolin

Bruce Bernhart mandolin lessons- tuning

Bruce Bernhart mandolin lessons- chord patterns

Bruce Bernhart on mandolin history and basic chord structures

Bruce Bernhart on string and saddle adjustment

Bruce Bernhart more tuning tips and whole/half steps

Bruce Bernhart on more chord patterns

Bruce Bernhart on the mandolin family

Bruce Bernhart on mandolin bluegrass chords and patterns


Bruce Bernhart on temperature considerations

Bruce Bernhart lessson on mandolin flats and sharps


Bruce Bernhart lesson on scales, circle of 5ths and meter


Bruce Bernhart on triads, gears

Bruce Bernhart mandolin chord diagrams

Bruce Bernhart on modern emergence of the mandolin

Bruce Bernhart on simple chords

Bruce Bernhart on whole and half-note steps on the mandolin

Bruce Bernhart mandolin practice excercises

Bruce Bernhart on playing waltzes


Bruce Bernhart on majors, minors and sevenths



THANK YOU FOR VISITING THE BRUCE BERNHART MANDOLIN WEBSITES!

Also, check out the Bruce Bernhart RV Websites and Blogs:

Solar power for your RV

The care and feeding of your RV battery

The sport of "geocaching" and RV refrigeration basics

The basics of RV power inversion

RV travel tips and tire care

Advanced discussion on power inversion

Tips on buying a house battery and cold weather maintenance

RV Insurance basics

Buying the right generator for your RV and portable power

RV television reception options

Care and maintenance of the RV air conditioner

Top RV destinations

RV long-term supplies and weight considerations

RV Insurance- Road protection and bodily injury coverage

RV battery types and winter charging considerations

Deep cycle battery basics

Website Builder